The Fleetwood Mac Discography

"Rhiannon" -- Stevie Nicks Lyrics MIDI Interpretations Real Audio
Originally from the Fleetwood Mac album.
This version is from The Dance.
As transcribed by Josh Shank and converted to HTML by Marty Adelson
(Return to the previous discography)


Intro & Verse
      (Am)           (F)
[---------------[-------------[
[-1-3-5-3-1-0---[---0-1-0-0---[
[-2-4-5-4-2-0-2-[-2-0-2-0-0-2-[
[-------------2-[-3---------3-[
[---------------[-------------[
[---------------[-------------[


Chorus
   (C)                  (F)
[-------[-----------[---------------[---[
[-------[-------1---[-------1-0-----[---[
[-0-2-0-[-*-0-2-0-*-[-*-0-2-2-0-2-*-[-0-[
[-2-3-2-[-*-2-3---*-[-*-2-3-----3-*-[-2-[
[-------[-----------[---------------[---[
[-------[-----------[---------------[---[


Break (1:49)

|---------------|
|-1-0-1-3-1-0---|
|-2-0-2-4-2-0-2-|
|-------------3-|
|---------------|
|---------------|


Return to the Penguin