The Fleetwood Mac Discography

"Edge Of Seventeen" -- Stevie Nicks Lyrics MIDI Interpretations Real Audio
Tabulated and contributed to The Penguin by Melissa Campbell, and converted to HTML by Melissa Campbell and Marty Adelson
(Return to the previous discography)

Heavy palm muting is the key to the tricky rhythm of the repeating rhythm
figure.  The tempo is very fast; in some areas, notes are spaced farther apart
so that they fit over the right words (and vice versa).  A heavily distorted 
lead guitar enters briefly in the second and third verses.  Not much else is 
going on with the guitars in this song. Keyboard fills (transcribed for 
guitar) appear under the lyrics.

TAB LEGEND:
8>7  = pull off from 8 onto 7
7<9  = from 7, hammer onto 9
8/10 = slide from 7 to 9
X    = play deadened strings for percussive effect

INTRO: Em(5) (with palm muting)
--------------------------------------
--------------------------------------
--------------------------------------   
---9---9---9---9---9---9---9---9------        
---7-7-7-7-7-7-7-7-7-7-7-7-7-7-7-7----
--------------------------------------

CHORUS: Play RHYTHM FIGURE below twice with heavy palm muting

Em(5)           C(5)                D(5)                    Em(5)                      
---------------------------------------------------------------------------
---------------------------------------------------------------------------
---------------------------------------------------------------------------
9---9---9---9-----------------------------------------------9---9---9---9--
7-7-7-7-7-7-7-7-10---10---10---10---12----12----12----12----7-7-7-7-7-7-7-7
----------------8--8-8--8-8--8-8--8-10-10-10-10-10-10-10-10----------------

Em            C
Just like the white winged dove...sings a song...
D                              Em
sounds like she's singing...   whoo...whoo...whoo
Em            C          
Just like the white winged dove...sings a song...
D                              Em
sounds like she's singing...   ooo baby ooo, said ooo


VERSE 1:   Play RHYTHM FIGURE from above, using chords as guide.  
Keyboard fills are tabbed below lyrics.
Em         C                         D                   Em
  And the days go by... like a strand in the wind in the web that is my own...

Em               C                                D                    Em
I begin again. Said to my friend (everything) baby stop nothing else mattered.

Em          C                           D          Em
            He was no more (he was no more) than a baby then.
------------------------------------------------------------   
8-8>7-----------------------------------10---------8--------
9-------9-9-----------------------------11---------9--------
--------9-9-----------------------------12---------9--------
------------------------------------------------------------
------------------------------------------------------------

Em                             C                      D                Em
             Well he ...      seemed broken hearted   something within him 
--------------------------------------------------------------------------
7-7<8/10-8>7<8--------------8---------------------8---10---------------8--
---------------9------------9---------------------9---11---------------9--
---------------9------------10--------------------10--12---------------9--
--------------------------------------------------------------------------
--------------------------------------------------------------------------

Em                     C                     D          Em
            But the    moment...   that I    first laid eyes...on...him...
---------------------------------------------------------7-----10----8----
-8--7--------8---7-----8--8---------8---8----10---10-----8-----10----8----
-9-----------9---------9--9---------9---9----11---11-----9-----11----9----
-9-----------9---------10-10--------10--10---12---12-----9-----12----10---
---------------------------------------------------------7-----12----10---
---------------------------------------------------------7-----10----8----

Em                     C                     D          Em
      all alone on the edge of                     seventeen.
---------------------------------------------------------------------------
-----------------------8---------------------10----------8-----------------
-----------------------9---------------------11----------9-----------------
-----------------------10--------------------12----------9-----------------
---------------------------------------------------------------------------
---------------------------------------------------------------------------

CHORUS:   Play RHYTHM FIGURE twice.  Keyboard parts tabbed below.
Em                     C                                 
         Just like the white winged dove...sings a song...
---7------------------------8------------8-------------10-
---8--10--10---8------------8------------8-------------10-
------11--11---9------------------------------------------
----------------------------------------------------------
----------------------------------------------------------
----------------------------------------------------------
 
D                           Em
sounds like she's singing...ooo baby ooo, said ooo
----------------10----------12---------------------
----------------10----------12-------10---------8--
-------------------------------------11---------9--
---------------------------------------------------
---------------------------------------------------
---------------------------------------------------

Em                     C                                 
         Just like the white winged dove...sings a song...
----------------------------8------------8-------------10-
----------------------------8------------8-------------10-
----------------------------------------------------------
----------------------------------------------------------
----------------------------------------------------------
----------------------------------------------------------

D                           Em
sounds like she's singing...ooo baby ooo, said ooo
----------------10----------12---------------------
----------------10----------12-------10---------8--
-------------------------------------11---------9--
---------------------------------------------------
---------------------------------------------------
---------------------------------------------------

VERSE 2:
Em                C                         D                     Em
       (Well) I went today...  (well) maybe I will go again...  tomorrow.
 ---------------------------------------------------------------------------- 
------------------8---8---------------------10---------------------8--------
------------------9---9---------------------11---------------------9--------
------------------10--10--------------------12---------------------9--------
----------------------------------------------------------------------------
----------------------------------------------------------------------------

Em                    C                       D                 Em
 (Yeah, yeah) and the music there  it was       hauntingly    familiar
---------------------------------------------------------------------- 
7-7<8/10-8>7<8------8--------------------8----10-----------------8----
---------------9----9--------------------9----11-----------------9----
---------------9----9--------------------10---12-----------------9----
----------------------------------------------------------------------
----------------------------------------------------------------------

Em        C                        D                        Em
    And I See you doing... what I try to do for me with the words of a poet...
(Keyboard harmonies appear in parenthesis after lead guitar enters)
                   
-------------------------------------------------------------(7)----------- 
-----8-------------------------(8-10)------------------------(8)-----------
9-11---9---9---9---X-9---X-9----9/11--11-X---11-X---11------9-9-9-9-9-9-9-9
-------9---10--10--X-10--X-10--10/12--12-X---12-X---12------9-9-9-9-9-9-9-9
---------------------------------------------------------------------------
---------------------------------------------------------------------------

Em                             C                     D                 Em
and a voice from a choir and a melody...               nothing else mattered
(Keyboard harmonies appear in parenthesis after lead guitar enters)
                  
----------------------------------------------------------------------------
----11-9------------------8--8-8-----------------(8)-(10)----------(10)-(8)-
----12-9------------------9--9-9--9---9---X-9---X-9---11--11-X-11-X-11---9--
-----------------------------9-10-10--10--X-10--X-10--12--12-X-12-X-12---9--
----------------------------------------------------------------------------
----------------------------------------------------------------------------

CHORUS:   Play RHYTHM FIGURE twice.  Keyboard parts tabbed below.
Em                     C                                 
         Just like the white winged dove...sings a song...
---7------------------------8------------8-------------10-
---8--10--10---8------------8------------8-------------10-
------11--11---9------------------------------------------
----------------------------------------------------------
----------------------------------------------------------
----------------------------------------------------------
 
D                           Em
sounds like she's singing...ooo baby ooo, said ooo
----------------10----------12---------------------
----------------10----------12-------10---------8--
-------------------------------------11---------9--
---------------------------------------------------
---------------------------------------------------
---------------------------------------------------

Em                     C                                 
         Just like the white winged dove...sings a song...
----------------------------8------------8-------------10-
----------------------------8------------8-------------10-
----------------------------------------------------------
----------------------------------------------------------
----------------------------------------------------------
----------------------------------------------------------

D                           Em
sounds like she's singing...ooo baby ooo, said ooo
----------------10----------12---------------------
----------------10----------12-------10---------8--
-------------------------------------11---------9--
---------------------------------------------------
---------------------------------------------------
---------------------------------------------------

BRIDGE: Instead of playing rhythm figure, play the 
muted 5 chord (from intro) 8 times for each chord
Em                     D                 C              D
The clouds...never expect   it when it rains...but the sea
-------------------------------------------------------------
-------8--8--------------10-10-----------8--8----------10-10-
-------9--9--------------11-11-----------9--9----------11-11-
-------9--9--------------12-12-----------10-10---------12-12-
-------------------------------------------------------------
-------------------------------------------------------------
                                                  
         C                  D              C      D  
changes colors...But the sea   does not change
----------------------------------------------------------------
---------8--8--------------10-10-----------8--8---10--12--10--10
---------9--9--------------11-11-----------9--9---11--12--11--11
---------10-10-------------12-12-----------10-10----------------
----------------------------------------------------------------
----------------------------------------------------------------  

Em                 D                C         D
And so... with the slow... graceful flow...of age   I went
-----------7---7---10-10-10--10-10--8-8-8---8-10-10-10----  
------7--7---8-----10-10-----10-10--8-8---8---10-10----10-  
------8--8---------11-11-----11-11--9-9-------11-11------- 
------9--9------------------------------------------------  
---------------------------------------------------------- 
----------------------------------------------------------  

C                    D               C                D
forth... with an age old           desire...       to please    on the

---8---8---8---8------10--10--10--10----8---8---8---8---10--10--10--10
--8---8---8---8------10--10--10--10----8---8---8---8---10--10--10--10-
----------------------------------------------------------------------
10--10--10--10------12--12--12--12---10--10--10--10---12--12--12--12--
----------------------------------------------------------------------
----------------------------------------------------------------------

C                    D                    Em
edge of              seven-               teen
---8----8----8----8----10---10---10---10----7---7---7---7
--8----8----8----8----10---10---10---10----8---8---8---8-
---------------------------------------------------------
10---10---10---10----12---12---12---12----9---9---9---9--
---------------------------------------------------------
---------------------------------------------------------

Em
 Oh..................(Insert your own primal scream here)  
 (keyboard chord in parentheses)
-----------------------------------
---------(8)-----------------------
---------(9)-----------------------   
9---9---9(9)9---9---9---9---9------        
7-7-7-7-7-7-7-7-7-7-7-7-7-7-7-7----
-----------------------------------

BREAK: RHYTHM FIGURE (with palm muting) is played once without accompaniment
Em(5)           C(5)                D(5)                    Em(5)                      
---------------------------------------------------------------------------
---------------------------------------------------------------------------
---------------------------------------------------------------------------
9---9---9---9-----------------------------------------------9---9---9---9--
7-7-7-7-7-7-7-7-10---10---10---10---12----12----12----12----7-7-7-7-7-7-7-7
----------------8--8-8--8-8--8-8--8-10-10-10-10-10-10-10-10----------------

CHORUS: Play RHYTHM FIGURE twice; keyboard parts are tabbed below
Em                     C                                 
         Just like the white winged dove...sings a song...
-----------------------8----------------------------------
-----------------------8----------------------------------
----------------------------------------------------------
----------------------------------------------------------
----------------------------------------------------------
----------------------------------------------------------
 
D                           Em
sounds like she's singing...ooo baby ooo, said ooo
10--------------------------12---------------------
10--------------------------12-------10---------8--
-------------------------------------11---------9--
---------------------------------------------------
---------------------------------------------------
---------------------------------------------------

Em                     C                                 
         Just like the white winged dove...sings a song...
-----------------------8----------------------------------
-----------------------8----------------------------------
----------------------------------------------------------
----------------------------------------------------------
----------------------------------------------------------
----------------------------------------------------------

D                           Em
sounds like she's singing...ooo baby ooo, said ooo
10--------------------------12-------10---------8--8
10--------------------------12-------10---------8--8
-------------------------------------11---------9--9
---------------------------------------------------- 
---------------------------------------------------- 
---------------------------------------------------- 

VERSE 3: Play RHYTHM FIGURE (Keyboard parts tabbed below)
Em        C                    D                             Em
Well then suddenly...there was no one...left standing in the hall
------------------------------------------------------------------ 
-----------8---------------8---10----------------------------8----
-----------9---------------9---11----------------------------9----
-----------10--------------10--12----------------------------9----
------------------------------------------------------------------
------------------------------------------------------------------

Em                     C                   D                   Em
       Yeah, yeah in a flood of tears that no one really heard fall at all
----------------------------------------------------------------------------- 
7-7<8/10-8>7<8---------8---------------8---10------------------8-------------
---------------9-------9---------------9---11------------------9-------------
---------------9-------10--------------10--12------------------9-------------
-----------------------------------------------------------------------------
-----------------------------------------------------------------------------


Em           C                                D                        Em 
   Oh I went searching for an answer...up the stairs and down the hall not to 
(Keyboard harmonies appear in parenthesis after lead guitar enters)
                                 
-7---------------------------------------------------------------------(7)--- 
-8-10-8----------------------------------(8-10)------------------------(8)---
---11-9--9----9----9----X--9----X--9------9/11--11-X---11-X---11------9-9-9-9
---------9----10---10---X--10---X--10----10/12--12-X---12-X---12------9-9-9-9
-----------------------------------------------------------------------------
-----------------------------------------------------------------------------

Em                                          C           D         Em
find an answer...Just to hear the call of a nightbird...Singing...Come away...       
(Keyboard harmonies appear in parenthesis after lead guitar enters)
          
------------------------------------------------------------------------------
--------------11-9-----------8--------8-8--------------(8)(10)---------(10)(8)
-9-9-9-9-----------12-9------9--------9-9--9--9--X-9--X-9--11-11-X-11-X-11--9-
-9-9-9-9------------------------------9-10-10-10-X-10-X-10-12-12-X-12-X-12--9-
------------------------------------------------------------------------------
------------------------------------------------------------------------------

CHORUS:   Play RHYTHM FIGURE twice.  Keyboard parts tabbed below.
Em                     C                                 
         Just like the white winged dove...sings a song...
---7------------------------8------------8-------------10-
---8--10--10---8------------8------------8-------------10-
------11--11---9------------------------------------------
----------------------------------------------------------
----------------------------------------------------------
----------------------------------------------------------
 
D                           Em
sounds like she's singing...ooo baby ooo, said ooo
----------------10----------12---------------------
----------------10----------12-------10---------8--
-------------------------------------11---------9--
---------------------------------------------------
---------------------------------------------------
---------------------------------------------------

Em                     C                                 
         Just like the white winged dove...sings a song...
----------------------------8------------8-------------10-
----------------------------8------------8-------------10-
----------------------------------------------------------
----------------------------------------------------------
----------------------------------------------------------
----------------------------------------------------------

D                           Em
sounds like she's singing...ooo baby ooo, said ooo
----------------10----------12---------------------
----------------10----------12-------10---------8--
-------------------------------------11---------9--
---------------------------------------------------
---------------------------------------------------
---------------------------------------------------

BRIDGE: Instead of playing rhythm figure, play the 
muted 5 chord (from intro) 8 times for each chord
Em                     D               C                D
Well I hear you in the morning...and I hear you...   at nightfall...

---------7---7---7---7--10--10--10--10----8---8---8---8---10---10---10---10
--------8---8---8---8--10--10--10--10----8---8---8---8---10---10---10---10-
---------------------------------------------------------------------------
-------9---9---9---9--12--12--12--12---10--10--10--10---12---12---12---12--
---------------------------------------------------------------------------
---------------------------------------------------------------------------

C               D               C               D         C       D     Em
Sometimes to be near you...  is to be         unable...to hear you...my love
---8---8---8---8--10--10--10--10---8---8---8---8--10--10--------------------
--8---8---8---8--10--10--10--10---8---8---8---8--10--10---8-------10----8---
----------------------------------------------------------9-------11----9---
10--10--10--10--12--12--12--12--10--10--10--10--12--12----10------12----9---
----------------------------------------------------------------------------
----------------------------------------------------------------------------


CHORUS: Play RHYTHM FIGURE three times
Em                  C                     D                          Em
    I'm a few years older than you (I'm a few year's older than you) my love.
-----------------------------------------------------------------------------
7-7<8/10-8>7<8------7--7---------------7--10--10-------------------------8---
---------------9----8--8---------------8--11--11-------------------------9---
---------------9----9--9---------------9--12--12-------------------------9---
-----------------------------------------------------------------------------
-----------------------------------------------------------------------------
 
Em                     C                                 
         Just like the white winged dove...sings a song...
---7------------------------8------------8-------------10-
---8--10--10---8------------8------------8-------------10-
------11--11---9------------------------------------------
 ----------------------------------------------------------
----------------------------------------------------------
----------------------------------------------------------

D                           Em
sounds like she's singing...ooo baby ooo, said ooo
----------------10----------12---------------------
----------------10----------12-------10---------8--
-------------------------------------11---------9--
---------------------------------------------------
---------------------------------------------------
---------------------------------------------------
 
Em                     C                                 
         Just like the white winged dove...sings a song...
----------------------------8------------8-------------10-
----------------------------8------------8-------------10-
----------------------------------------------------------
----------------------------------------------------------
----------------------------------------------------------
----------------------------------------------------------

D                           Em
sounds like she's singing...ooo baby ooo, said ooo
----------------10----------12---------------------
----------------10----------12-------10---------8--
-------------------------------------11---------9--
---------------------------------------------------
---------------------------------------------------
---------------------------------------------------


"Enchanted" -- Stevie Nicks Lyrics Interpretations Real Audio
As transcribed by Dan Brugman, contributed to the Penguin by Josh Shank, and converted to HTML by Marty Adelson
(Return to the previous discography)

X=left hand mute
/=slide up
\=slide down
h=hammer on
p=pull off
/\/\/=full step vibrato
/(#)=note rings out following slide

There are only 2 part's to this song, the riff and the solo, the riff goes 
like this:

      (Amaj)
E-------5--5----X---5--5---5----X-----5-------X---5--5---5--5--X-------|
B-------5--5----X---5--5---5----X-----5-------X---5--5---5--5--X-------|
G-------6--6----X---6--6---6----X-----6-------X---6--6---6--6--X-------|
D-------7--7----X---7--7---7----X-----7-------X---7--7---7--7--X-------|
A-------7--7----X---7--7---7----X-----7-------X---7--7---7--7--X-------|
E-------5--5----X---5--5---5----X-----5-------X---5--5---5--5--X-------|

         (Emaj)
E-------7--7--7--7--7--7--7--7----X-----5---X---5--5--5--X----|
B-------9--9--9--9--9--9--9--9----X-----5---X---5--5--5--X----|
G-------9--9--9--9--9--9--9--9----X-----6---X---6--6--6--X----|
D-------9--9--9--9--9--9--9--9----X-----7---X---7--7--7--X----|
A-------7--7--7--7--7--7--7--7----X-----7---X---7--7--7--X----|
E-------7--7--7--7--7--7--7--7----X-----5---X---5--5--5--X----|

Then the solo goes like this:
E------------------------------------------------------------------|
B------------------------------------------------------------------|
G------------------------------------------------------------------|
D------------------------------------------------------------------|
A--------------------------5/(7)---7---7-7-7-----------------------|
E---3/(5)--5---5-5-5--------------------------5p3-5p3-1------1/(5)-|

E--------------------------------------------------------------------------|
B--------------------------------------------------------------------------|
G--------------------------------------------------------------------------|
D--------------------------------------------------------------------------|
A--------------------------5/(7)---7---7-7-7----5/\/\/\--------------------|
E---3/(5)--5---5-5-5--------------------------------------5--5-5--5-5---5--|


"Everywhere" -- Christine McVie Lyrics MIDI Interpretations Real Audio
Originally from the album Tango In The Night.
this version from the album The Dance.
As transcribed by Josh Shank and converted to HTML by Marty Adelson
(Return to the previous discography)

Lindsey Buckingham starts the song out by picking an E chord very fast in a sweeping manner.
I can't play nearly fast enough to figure that part out, so I'll start with the riff he
plays when the drums kick in.  This riff is played throughout the verse.
I'll label it in different parts to let you know when to play what part when.  

       part I                       part II 
e|--------0-------------0-|------0-------------|
B|------0-----2---4---0---|----0------2---4---0|
G|----1-----2---4----1----|--1------2---4---1--|
D|--2-----2---------------|2------2------------|
A|------------------------|--------------------|
E|------------------------|--------------------|

 part III                part IV
|-------0---------------|------------------0-|
|-----0-------2---4---5-|-------2---0----0---|
|---1-------2---4---6---|-----2---4----1-----|
|-2-------2-------------|---2----------------|
|-----------------------|--------------------|
|-----------------------|--------------------|

When the drums kick in, play parts I-IV two times, then, to the verse

Verse 1:
(part I)Can you hear me calling
(part II)Out your name
(part III)You know that I'm falling
(part IV)And I don't know what to say

(part I)I'll speak a little louder
(part II)I'll even shout
(part III)You know that I'm proud
(part IV)And I can't get the words out

Oh I...[B]I...[C#m]I...[A]I...[B]
[C#m]I want to [B]be with you [A]everywhere
Oh I...[B]I...[C#m]I...[A]I...[B]
[C#m]I want to [B]be with you [A]everywhere
(Wanna be with you everywhere)

(parts I-IV)

Verse 2:
(part I)Something's happening
(part II)Happening to me
(part III)My friends say I'm acting (part IV)peculiarly

(part I)C'mon  baby
(part II)We better make a start
(part III)You better make it soon
(part IV)Before you break my heart

(Chorus, then strum the E chord fast again)

Verse 3:
(part I)Can you hear me calling
(part II)Out your name
(part III)You know that I'm falling
(part IV)And I don't know what to say

(part I)Come along baby
(part II)We better make a start
(part III)You better make it soon
(part IV)Before you break my heart

(Chorus, then strum the E chord fast again until end of song)


Return to the Penguin