The Fleetwood Mac Discography

"Django" -- Lindsey Buckingham
As transcribed by Marieke van der Til and converted to HTML by Marty Adelson
(Return to the previous discography)

Django: John Lewis
Capo on three
~: slide over frets from position to position
12: flageolet

E----3-------2---------------5--8--3-----2--3--0-----7--------10--8------
B----5-----5----5--4~5-1-----4--7----5---------------6--------9-----5----
G----4---4------2------------5--8------4-------0-----7-----7--10------5--
D---------------4--4~5-2---------------------------------6---------------
A----------------------------2------------------------------------0------
E--0---0---------------------------0--------------0----0-----------------

E--7-8---5-------5---------8--7------6--7----3-------3--7--5------4-5-------6----5-
B---------5------4------4--7--8------7--8----3-------5-------5----------7----------
G------5---5-----5----5----8--7----------------4-----4---------5--4-5-------6----5-
D-------------0-----0-----------0--------------------5-----4----------4---4---4--4-
A-------------------------------------------------3--------------------------------
E----------------------------------3------3----------------------------------------

E--6---2--7--------8------14--12-----10--8----8--7----5--3-----3-0---0-2-0-
B------2--7------7-------------------10--10---8--7----0--0----0----0-------
G--6---3--8----8---------------------9---9----9--8----0--0-----------------
D--4---------7-------------------------------------------------------------
A---------------------------------12---------------------------------------
E------2-7------------12--------------------7------12-------0--------------

E------0--------------------------------------------------------------------------12-
B-------1-----1---------1----------0----------------------------------------------12-
G---------2-----2-------2------3---2---2--2-4-2-0---0-2-0---0---------------------12-
D---2-------2---------1--------2---1--------------4-------4---2---2--2---2---1-2-----
A--0---------------2-------2-3-----2----------------------------2---0----------------
E--------------------------------------0-------------------------------3---2---0-----


"Don't Let Me Down Again" -- Lindsey Buckingham Lyrics Interpretations
Originally from the album Buckingham Nicks.
This version is from Fleetwood Mac Live.
As transcribed by Josh Shank and converted to HTML by Marty Adelson
(Return to the previous discography)



I didnít tab out the solo and Iím not sure itís EXACTLY what Lindsey plays but itís
REALLY close and it sounds good the whole way through.

Tuning=EADGBe

Main riff: (just remember that the open low As are the bass note)
e|-------------|-------------|---------------------|
B|-2-0---------|-2-0---------|-2-0---------0-------|
G|-----2---2---|-----2---2---|-----2---2-----2-----|
D|-------2-----|-------2-----|-------2-------------|
A|-0-0-------0-|-0-0-------0-|-0-0-------0-0-0-0-0-|
E|-------------|-------------|---------------------|

Chorus riff:
e|-------------------------------------------|
B|-------------------1b-------------------1b-|
G|---2---2---2---2--------2---2---2---2------| Back to
D|---0---0---0---0--------0---0---0---0------| main riff
A|-------------------------------------------|
E|-3---3---3---3---3----2---2---2---2---2----|


"Don't Stop" -- Christine McVie Lyrics MIDI Interpretations Real Audio
Originally from the album Rumours.
This version is from The Dance.
As transcribed by indigo, submitted by Josh Shank and converted to HTML by Marty Adelson
(Return to the previous discography)


[Each chord is half a measure]

E   A/E   E   A/E   E   A/E   E   A/E
[intro]

E        D           A                   A
  If you wake up and don't want to smile
E       D            A            A
  If it takes just a little while
E           D        A               A
  Open your eyes and look at the day
B            B           B          B
  You'll see things in a different way

  E     D/E  A                A
  Don't stop thinking about tomorrow
  E     D/E   A             A
  Don't stop; it'll soon be here
E        D/E  A               A
  It'll be    better than before
  B             B     B          B
  Yesterday's gone, yesterday's gone

Why not think about times to come
And not about the things that you've done
If your life was bad to you
Just think what tomorrow will do

All I want is to see you smile
If it takes just a little while
I know you don't believe that it's true
I never meant any harm to you

E  D/E  A   A              E   D/E   A   A
Oooooooooh, don't you look back....


"Dreams" -- Stevie Nicks, Rumours Lyrics MIDI Interpretations Real Audio
As transcribed by Mende Joveski, contributed to The Penguin by Josh Shank, and converted to HTML by Marty Adelson
(Return to the previous discography)

CHORDS USED:
Am    x02210
F     133211
G     320003
G6    32000x

intro:    F     G      F      G

F                         G
Now here you go again
F                                           G
You say you want your freedom
F                     G
Well who am I to keep you down?
F                    G                        F                               G
It's only right that you should play the way you feel it
       F                     G
But listen carefully to the sound
F                  G                  F                                     G
Of your loneliness, like a heartbeat drives you mad
                F                     G                             F
In the stillness of remembering what you had
G                          F
And what you lost
G                          F
And what you had 
G                          F
And what you lost


CHORUS:
G    Am                   G6                         Am           G6
Oh  thunder only happens when it's raining
Am                     G6                               Am          G6
Players only love you when they're playing
        Am                               G6                    Am       G6
Say, women, they will come and they will go
Am                            G6                         Am           G6
When the rain washes you clean you'll know
            Am
You'll know

(now go back to alternating b/t the G  &  F chords like the 1st verse)

2nd Verse:

Now here I go again 
I see you crystal visions
I keep my visions to myself
It's only me who wants to wrap around you dreams and,
Have you any dreams you'd like to sell
Dreams of loneliness like a heartbeat drives you mad
In the stillness of remembering what you had
And what you lost
And what you had
Ooh and what you lost

repeat chorus twice:

You'll know
You will know

Return to the Penguin