The Fleetwood Mac Discography

"Bleed To Love Her" -- Lindsey Buckingham, The Dance. Lyrics MIDI Interpretations
As transcribed by Josh Shank. Formatted to HTML by Marty Adelson.
(Return to the previous discography)
Tuning = Eb Ab Db Gb Bb eb 
(tune all strings down one half step)

eb|-----5-----5---5-|-----5-----5---4-|
Bb|-----------------|-----------------|
Gb|---2-----2-------|---2-----2-------|
Db|-----------------|-----------------|
Ab|-0-----0-----0---|-0-----0-----0---|
Eb|-----------------|-----------------|

eb|-----4-----4---2-|-----2-----2---0-|
Bb|-----------------|-----------------|
Gb|---2-----2-------|---1-----1-------|
Db|-0-----0-----0---|-2-----2-----2---|
Ab|-----------------|-----------------|
Eb|-----------------|-----------------|

eb|-----0-----0---0-|-----0-----0----0-|
Bb|-----------------|------------------|
Gb|---2-----2-------|---2-----2--------|
Db|-----------------|------------------|
Ab|-0-----0-----0---|-4-----4-----4----|
Eb|-----------------|------------------|

eb|-----0-----0-----|-----0-----0---0-|
Bb|-----------------|-----------------|
Gb|---2-----2-------|---1-----1-------| repeat the 
Db|-0-----0---------|-----------------| whole thing
Ab|-------------4/2-|-----------------|
Eb|-----------------|-0-----0-----0---|

CHORUS riff:
eb|---------------------------------|
Bb|-----2-----0---2-----2-----0---2-|
Gb|---2-----2---------2-----2-------|
Db|---------------------------------|
Ab|-0-----0-----0---0-----0-----0---|
Eb|---------------------------------|

eb|-------------------------------|
Bb|-----2-----0---0-----2---0h2-0-|
Gb|---2-----2---------2---2-------|
Db|-0-----0-----0-----------------|
Ab|-------------------------------|
Eb|-----------------0-------------|

the last time before the verse or bridge starts up:
|---------------|
|---0-2-0-0-0---|
|-2-----------2-|
|---------------|
|---------------|
|---------------|

this is the chord that Lindsey strums during the bridge:
|---0---|
|---5---|
|---4---|
|---x---|
|---x---|
|---x---|


"Big Love" -- originally on Tango In The Night. Lyrics MIDI Interpretations Real Audio
As transcribed by Thomas Kleist. Please do not reproduce without his permission.
(Return to the previous discography)
Note: This tabulatures are to the live version of this song.

capo 4th fret                

  : Rhy Fig.1

  ----------------------------------------------------------------------
  ----------------------------------------------------------------------
  ----------2----------------2----------2--------------2----------------
  --0-2--------------0-2----------------------2---------------2---------
  --0----0-----0--0--0----0-----0--0------------------------------------
  --------------------------------------3--3-----3--3--3---3-----3--3---

  ----------------------------------------------------------------------
  ----------------------------------------------------------------------
  ----------2----------------2----------2--------------2----------------
  --0-2--------------0-2----------------------2---------------2---------
  ----------------------------------------------------------------------
  --1----1-----1--1--1----1-----1--1----0--0-----0--0--0---0-----0--0---


  : Chorus 

  ---------------------------------------------------------------0------
  ---------------------------------------------------0---1---3----------
  --------------------------------------2-------------------------------
  ----------3----------------2----------------2-------------------------
  --1-3--------------0-2----------------0--0-----0---0---0---0---0--0---
  --1----1-----1--1--0----0-----0--0------------------------------------

  --1-0--------------1-0------------------------------------------------
  ---------3----1-0---------3-----1-0---1-------------------------------
  --------------------------------------2-----2--------0---2--2---------
  --0---0----0--0----2---2-----2--0-----------------0------2--2---------
  --------------------------------------0--0-----0-----0---0--0---------
  ---------------------------------------------------------------0--0---

  --------------------------------------------------------------------0-
  -----------------------------------------------0-----1-----3----------
  --------------------------------------2-----2-------------------------
  ----------3----------------2----------2---------------------------3---
  --1-3--------------0-2----------------0--0-----0---0---0---0---0------
  --1----1-----1--1--0----0-----0--0------------------------------------

  -(3)------------------------------------------------------------------
  ------3------1------0----1-----0-1------------------------------------
  ------------------0----------0--------2-----2--------0---2--2---------
  --3---3---3-----3-----2----2----------------------0------2------------
  --------------------------------------0--0-----0-----0---0--0--0--0---
  ----------------------------------------------------------------------


  Interlude:      

  --5--8-----5-----8-----5-----8---5-----8-----5-----8-----5-----8---5--
  ----------------------------------------------------------------------
  ----------------------------------------------------------------------
  -----0---0---0--------------------------------------------------------
  ---------------------------------------0---0---0---0---0---0---0---0--
  -----------------0---0---0---0---0------------------------------------
 
  -----8-----5-----8-----8-----8---8-----5-----5-----3---5--------------
  ----------------------------------------------------------------------
  ----------------------------------------------------------------------
  -----0---0---0--------------------------------------------------------
  ---------------------------------------0---0---0---0---0---0---0---0--
  -----------------0---0---0---0---0------------------------------------

  ---------------------------------------0-----1-----3-------1---0------
  ---------0-------1-----0-----1---3-----------------------------1---1--
  --2----------2-------------0-----------------------------------2------
  --3--3-----3-----3---2---2---2---2---------------------3--------------
  ---------------------------------------3---3---3----------------------
  ----------------------------------------------------------------------

  -----------0----------------------------------------------------------
  ---3-------------3-----1-----1---0-----1------------------------------
  --------------2------------1-----------2-----2-----0---2--------------
  -------------------------------------------------2-----2--------------
  ---2---2---2-----2---------------------0---0---0---0---0---0---0---0--
  ---------------------0---0---0---0------------------------------------
  
  --------0------------0------------0---------0-----------0-----------0-
  ----0------------0------------0---------0-----------0-----------0-----
  ------5------------5------------5---------4-----------4-----------4---
  --7-------7----7-------7----7---------5-------5---5-------5---5-------
  ----------------------------------------------------------------------
  ----------------------------------------------------------------------

  --------0------------0------------0---------0-----------0-----------0-
  ----0------------0------------0---------0-----------0-----------0-----
  ------2------------2------------2---------4-----------4-----------4---
  --3-------3----3-------3----3---------5-------5---5-------5---5-------
  ----------------------------------------------------------------------
  ----------------------------------------------------------------------

  Outro chords :  Fmaj7 - Em - Am - G6
  -------------------------------------


Return to the Penguin